1. Подарки
  2. Статьи
  3. Правило заполнения личного солдатского жетона Бундесвера

Правило заполнения личного солдатского жетона Бундесвера

RSS
27 августа 2012
Передняя сторона жетона содержит следующие поля:


Поле 1: группа крови (A, B, AB или 0) или остается пустой
Поле 2: гражданство, GE = GERMANY
Поле 3: вероисповедание E (евангелическое), RK (католическое), O (православное) или пусто (никакого вероисповедания)
Поле 4: дата рождения в формате " дни, месяц, год (двузначно) ", первая буква фамилии, номер военного округа откуда был призван (трехзначное) Luneburg (209), цифра "1" - это текущий номер, который служит для отличия его от других с одинаковыми данными (1-3) и 5-я цифра - контрольная цифра.

PK  (Personenkennummer der Bundeswehr)

Структура:
----------------------------------------------------------------
Geburtsdatum = Дата рождения - число/месяц/год (ч ч м м г г)
Name = 1-я буква фамилии - (a)
KWEA = военный округ - x1 x2 x3
Lfd.Zahl - i
PZ контрольная цифра - p
-----------------------------------------------------------------
Die Laufzahl (Lfd.Zahl) - служит для отличия людей с одинаковыми данными по (Geburtsdatum, Name, KWEA).

Prufziffer (Контрольная цифра = p):
----------------------------------------------------------------
Имеющиеся не численые знаки (первая буква фамилии) должны быть переведены в численое значение:

Таблица преобразования букв в числа:
A = 12 F = 22 K = 08 P = 18 U = 08 Z = 18
B = 14 G = 24 L = 10 Q = 20 V = 10
C = 16 H = 26 M = 12 R = 22 W = 12
D = 18 I = 28 N = 14 S = 04 X = 14
E = 20 J = 06 O = 16 T = 06 Y = 16

После замещения проверочная цифра может рассчитываться следующим образом.

1. Все цифры 4 поля вашего жетона перемножаются слева направо на соответствующие коеффициенты 2,3,4,5,6,7,1,6,7,2,3.
2. После этого все цифры суммируются.
3. Полученная сумма делится на 11 (modulo 11).
4. Контрольная цифра получается в зависимости от остатка деления на 11 суммы (3).
- Если остаток не равен нулю, считается что p = 0
- Если остаток равен нулю, считается что p = 1

151058-D-2071p
1.
Nummer Schritt 1: Gewichtung Schritt 2: Produkt-summation
----------1-------------------------2--------------------------2
----------5-------------------------3--------------------------15
----------1-------------------------4--------------------------4
----------0-------------------------5--------------------------0
----------5-------------------------6--------------------------30
----------8-------------------------7--------------------------56
----------D = 18-----------------1--------------------------18
----------2-------------------------6--------------------------12
----------0-------------------------7---------------------------0
----------7-------------------------2--------------------------14
----------1-------------------------3--------------------------3
----------p
2.----------------------------------------------------Summe 154
3. 154 ? 11 = 14 (остаток 0)
4. 11 - 0
Контрольная цифра 1
151058-D-20711

KWEA
Kreiswehrersatzamt Военный округ
----------------------------------------------------
Номер KWEA - это составная часть Personenkennnummer в Бундесвере. Этот список не полоный, к сожалению. Количество KWEA осталось плавающим в течение всего времени, и список содержит также номера учреждений которые закрывались на протяжении всего времени.

Оборотная сторона жетона содержит следующее поля:

Поле 5: группа крови (A, B, AB или 0)
Поле 6: резус-фактор (Rh + или Rh-)
Поле 7: дата прививки от столбняка («Т» с цифровым обозначением года)  например "Т96"
Поле 8: пусто*
Поле 9: пусто*
Поле 10: пусто*

* поля 8, 9, 10: могут быть заполнены Федеральным министерством обороны

Пример:

Personenkennziffer
Beispiel: 261083-K-20930

Дата рождения: 26 октября 1983 года
Фамилия начинается на букву "К" - Sebastian, Kohler
Военный округ: Luneburg (209)
Текущий номер: 3
Контрольная цифра: 0

Анастасия
Gravira менеджер 
Анастасия
0 комментариев
Комментариев ещё нет — ваш может стать первым.